ISO-10303-21;
HEADER;
FILE_DESCRIPTION (( 'STEP AP203' ),
    '1' );
FILE_NAME ('Q-QZWP-R4-20-488-M.STEP',
    '2020-12-23T01:25:51',
    ( '' ),
    ( '' ),
    'SwSTEP 2.0',
    'SolidWorks 2020',
    '' );
FILE_SCHEMA (( 'CONFIG_CONTROL_DESIGN' ));
ENDSEC;

DATA;
#1 = DATE_AND_TIME ( #125, #5 ) ;
#2 = ORIENTED_EDGE ( 'NONE', *, *, #308, .T. ) ;
#3 = ORIENTED_EDGE ( 'NONE', *, *, #28, .F. ) ;
#4 = AXIS2_PLACEMENT_3D ( 'NONE', #242, #93, #18 ) ;
#5 = LOCAL_TIME ( 9, 25, 51.00000000000000000, #306 ) ;
#6 = ORIENTED_EDGE ( 'NONE', *, *, #271, .T. ) ;
#7 = EDGE_LOOP ( 'NONE', ( #311, #230, #229, #78 ) ) ;
#8 = ORIENTED_EDGE ( 'NONE', *, *, #144, .T. ) ;
#9 = AXIS2_PLACEMENT_3D ( 'NONE', #89, #39, #116 ) ;
#10 = DIRECTION ( 'NONE',  ( 1.000000000000000000, 0.000000000000000000, 0.000000000000000000 ) ) ;
#11 = ORIENTED_EDGE ( 'NONE', *, *, #75, .T. ) ;
#12 = CARTESIAN_POINT ( 'NONE',  ( 2.999999999999999112, 0.000000000000000000, 0.000000000000000000 ) ) ;
#13 = CYLINDRICAL_SURFACE ( 'NONE', #82, 10.00000000000000000 ) ;
#14 = APPROVAL ( #71, 'UNSPECIFIED' ) ;
#15 = DIRECTION ( 'NONE',  ( -1.000000000000000000, -0.000000000000000000, -0.000000000000000000 ) ) ;
#16 = APPROVAL_PERSON_ORGANIZATION ( #21, #14, #197 ) ;
#17 = DIRECTION ( 'NONE',  ( -1.000000000000000000, -0.000000000000000000, -0.000000000000000000 ) ) ;
#18 = DIRECTION ( 'NONE',  ( 0.000000000000000000, 0.000000000000000000, 1.000000000000000000 ) ) ;
#19 = DIRECTION ( 'NONE',  ( -1.000000000000000000, 0.000000000000000000, -0.000000000000000000 ) ) ;
#20 = DIRECTION ( 'NONE',  ( 1.000000000000000000, 0.000000000000000000, 0.000000000000000000 ) ) ;
#21 = PERSON_AND_ORGANIZATION ( #262, #133 ) ;
#22 = AXIS2_PLACEMENT_3D ( 'NONE', #186, #19, #249 ) ;
#23 = APPLICATION_PROTOCOL_DEFINITION ( 'international standard', 'config_control_design', 1994, #319 ) ;
#24 = SECURITY_CLASSIFICATION_LEVEL ( 'unclassified' ) ;
#25 = DATE_AND_TIME ( #121, #117 ) ;
#26 = SECURITY_CLASSIFICATION ( '', '', #24 ) ;
#27 = ORIENTED_EDGE ( 'NONE', *, *, #163, .T. ) ;
#28 = EDGE_CURVE ( 'NONE', #290, #201, #184, .T. ) ;
#29 = VERTEX_POINT ( 'NONE', #181 ) ;
#30 = LOCAL_TIME ( 9, 25, 51.00000000000000000, #227 ) ;
#31 = VERTEX_POINT ( 'NONE', #55 ) ;
#32 = CYLINDRICAL_SURFACE ( 'NONE', #122, 12.69999999999999929 ) ;
#33 = AXIS2_PLACEMENT_3D ( 'NONE', #206, #10, #273 ) ;
#34 = ORIENTED_EDGE ( 'NONE', *, *, #85, .T. ) ;
#35 = CARTESIAN_POINT ( 'NONE',  ( -3.000000000000000444, 0.000000000000000000, 10.00000000000000000 ) ) ;
#36 = FACE_OUTER_BOUND ( 'NONE', #112, .T. ) ;
#37 = EDGE_LOOP ( 'NONE', ( #233, #153 ) ) ;
#38 = CARTESIAN_POINT ( 'NONE',  ( -3.000000000000000000, 0.000000000000000000, 12.69999999999999929 ) ) ;
#39 = DIRECTION ( 'NONE',  ( -1.000000000000000000, -0.000000000000000000, -0.000000000000000000 ) ) ;
#40 = DIRECTION ( 'NONE',  ( -1.000000000000000000, -0.000000000000000000, -0.000000000000000000 ) ) ;
#41 = DIRECTION ( 'NONE',  ( -1.000000000000000000, -0.000000000000000000, -0.000000000000000000 ) ) ;
#42 = CIRCLE ( 'NONE', #275, 10.00000000000000000 ) ;
#43 = CARTESIAN_POINT ( 'NONE',  ( -3.000000000000000444, 0.000000000000000000, 0.000000000000000000 ) ) ;
#44 = PLANE ( 'NONE',  #22 ) ;
#45 = CARTESIAN_POINT ( 'NONE',  ( 3.000000000000000000, 1.555301434917138433E-15, -12.69999999999999929 ) ) ;
#46 = COORDINATED_UNIVERSAL_TIME_OFFSET ( 8, 0, .AHEAD. ) ;
#47 = VECTOR ( 'NONE', #215, 1000.000000000000000 ) ;
#48 = DATE_AND_TIME ( #332, #173 ) ;
#49 = PERSON_AND_ORGANIZATION ( #262, #133 ) ;
#50 = ORIENTED_EDGE ( 'NONE', *, *, #128, .T. ) ;
#51 = COORDINATED_UNIVERSAL_TIME_OFFSET ( 8, 0, .AHEAD. ) ;
#52 = AXIS2_PLACEMENT_3D ( 'NONE', #212, #207, #162 ) ;
#53 = ORIENTED_EDGE ( 'NONE', *, *, #196, .F. ) ;
#54 = PRODUCT_RELATED_PRODUCT_CATEGORY ( 'detail', '', ( #83 ) ) ;
#55 = CARTESIAN_POINT ( 'NONE',  ( 2.999999999999999112, 1.224646799147353256E-15, -10.00000000000000000 ) ) ;
#56 = DESIGN_CONTEXT ( 'detailed design', #319, 'design' ) ;
#57 = CARTESIAN_POINT ( 'NONE',  ( -3.000000000000000000, 0.000000000000000000, 0.000000000000000000 ) ) ;
#58 = DIRECTION ( 'NONE',  ( -1.000000000000000000, -0.000000000000000000, -0.000000000000000000 ) ) ;
#59 = CARTESIAN_POINT ( 'NONE',  ( 2.500000000000000888, 0.000000000000000000, 0.000000000000000000 ) ) ;
#60 = AXIS2_PLACEMENT_3D ( 'NONE', #138, #185, #296 ) ;
#61 = VERTEX_POINT ( 'NONE', #158 ) ;
#62 = DIRECTION ( 'NONE',  ( -1.000000000000000000, -0.000000000000000000, -0.000000000000000000 ) ) ;
#63 = DIRECTION ( 'NONE',  ( 1.000000000000000000, 0.000000000000000000, 0.000000000000000000 ) ) ;
#64 = ADVANCED_BREP_SHAPE_REPRESENTATION ( 'Q-QZWP-R4-20-488-M', ( #234, #180 ), #302 ) ;
#65 = DIRECTION ( 'NONE',  ( -1.000000000000000000, -0.000000000000000000, -0.000000000000000000 ) ) ;
#66 = CARTESIAN_POINT ( 'NONE',  ( -2.500000000000000444, 10.00000000000000000, 0.000000000000000000 ) ) ;
#67 = ADVANCED_FACE ( 'NONE', ( #265 ), #32, .T. ) ;
#68 = CARTESIAN_POINT ( 'NONE',  ( -2.500000000000000444, 0.000000000000000000, 10.00000000000000000 ) ) ;
#69 = DIRECTION ( 'NONE',  ( -1.000000000000000000, 0.000000000000000000, -0.000000000000000000 ) ) ;
#70 = CARTESIAN_POINT ( 'NONE',  ( -3.000000000000000000, 0.000000000000000000, 0.000000000000000000 ) ) ;
#71 = APPROVAL_STATUS ( 'not_yet_approved' ) ;
#72 = CC_DESIGN_PERSON_AND_ORGANIZATION_ASSIGNMENT ( #194, #126, ( #204 ) ) ;
#73 = AXIS2_PLACEMENT_3D ( 'NONE', #183, #69, #240 ) ;
#74 = DATE_TIME_ROLE ( 'classification_date' ) ;
#75 = EDGE_CURVE ( 'NONE', #201, #61, #100, .T. ) ;
#76 = ORIENTED_EDGE ( 'NONE', *, *, #228, .T. ) ;
#77 = APPROVAL_PERSON_ORGANIZATION ( #310, #132, #101 ) ;
#78 = ORIENTED_EDGE ( 'NONE', *, *, #324, .F. ) ;
#79 = EDGE_CURVE ( 'NONE', #31, #316, #272, .T. ) ;
#80 = EDGE_LOOP ( 'NONE', ( #239, #261, #50, #76 ) ) ;
#81 = ORIENTED_EDGE ( 'NONE', *, *, #333, .T. ) ;
#82 = AXIS2_PLACEMENT_3D ( 'NONE', #115, #211, #326 ) ;
#83 = PRODUCT ( 'Q-QZWP-R4-20-488-M', 'Q-QZWP-R4-20-488-M', '', ( #152 ) ) ;
#84 = LINE ( 'NONE', #276, #156 ) ;
#85 = EDGE_CURVE ( 'NONE', #29, #108, #289, .T. ) ;
#86 = DIRECTION ( 'NONE',  ( 0.000000000000000000, 0.000000000000000000, -1.000000000000000000 ) ) ;
#87 = ORIENTED_EDGE ( 'NONE', *, *, #98, .T. ) ;
#88 = DIRECTION ( 'NONE',  ( -1.000000000000000000, -0.000000000000000000, -0.000000000000000000 ) ) ;
#89 = CARTESIAN_POINT ( 'NONE',  ( 2.999999999999999112, 0.000000000000000000, 0.000000000000000000 ) ) ;
#90 = CC_DESIGN_PERSON_AND_ORGANIZATION_ASSIGNMENT ( #150, #174, ( #204 ) ) ;
#91 = CARTESIAN_POINT ( 'NONE',  ( -1.614212418857619014, 0.000000000000000000, 0.000000000000000000 ) ) ;
#92 = CARTESIAN_POINT ( 'NONE',  ( -1.614212418857619014, 1.555301434917138433E-15, -12.69999999999999929 ) ) ;
#93 = DIRECTION ( 'NONE',  ( -1.000000000000000000, -0.000000000000000000, -0.000000000000000000 ) ) ;
#94 = LINE ( 'NONE', #323, #47 ) ;
#95 =( LENGTH_UNIT ( ) NAMED_UNIT ( * ) SI_UNIT ( .MILLI., .METRE. ) );
#96 = AXIS2_PLACEMENT_3D ( 'NONE', #70, #267, #120 ) ;
#97 = APPROVAL_ROLE ( '' ) ;
#98 = EDGE_CURVE ( 'NONE', #290, #269, #220, .T. ) ;
#99 = DATE_AND_TIME ( #334, #30 ) ;
#100 = CIRCLE ( 'NONE', #312, 12.69999999999999929 ) ;
#101 = APPROVAL_ROLE ( '' ) ;
#102 = ADVANCED_FACE ( 'NONE', ( #119 ), #118, .F. ) ;
#103 = DIRECTION ( 'NONE',  ( 1.000000000000000000, 0.000000000000000000, 0.000000000000000000 ) ) ;
#104 = ORIENTED_EDGE ( 'NONE', *, *, #79, .T. ) ;
#105 = ADVANCED_FACE ( 'NONE', ( #248 ), #329, .F. ) ;
#106 = CIRCLE ( 'NONE', #96, 12.69999999999999929 ) ;
#107 = ORIENTED_EDGE ( 'NONE', *, *, #228, .F. ) ;
#108 = VERTEX_POINT ( 'NONE', #68 ) ;
#109 = VECTOR ( 'NONE', #297, 1000.000000000000000 ) ;
#110 = DIRECTION ( 'NONE',  ( -1.000000000000000000, -0.000000000000000000, -0.000000000000000000 ) ) ;
#111 = LINE ( 'NONE', #293, #246 ) ;
#112 = EDGE_LOOP ( 'NONE', ( #208, #104, #6, #287 ) ) ;
#113 = DIRECTION ( 'NONE',  ( 0.000000000000000000, 0.000000000000000000, -1.000000000000000000 ) ) ;
#114 =( NAMED_UNIT ( * ) PLANE_ANGLE_UNIT ( ) SI_UNIT ( $, .RADIAN. ) );
#115 = CARTESIAN_POINT ( 'NONE',  ( -1.614212418857619014, 0.000000000000000000, 0.000000000000000000 ) ) ;
#116 = DIRECTION ( 'NONE',  ( 0.000000000000000000, 0.000000000000000000, 1.000000000000000000 ) ) ;
#117 = LOCAL_TIME ( 9, 25, 51.00000000000000000, #46 ) ;
#118 = CYLINDRICAL_SURFACE ( 'NONE', #327, 10.00000000000000000 ) ;
#119 = FACE_OUTER_BOUND ( 'NONE', #292, .T. ) ;
#120 = DIRECTION ( 'NONE',  ( 0.000000000000000000, 0.000000000000000000, 1.000000000000000000 ) ) ;
#121 = CALENDAR_DATE ( 2020, 23, 12 ) ;
#122 = AXIS2_PLACEMENT_3D ( 'NONE', #318, #110, #205 ) ;
#123 = EDGE_CURVE ( 'NONE', #164, #135, #187, .T. ) ;
#124 = LOCAL_TIME ( 9, 25, 51.00000000000000000, #51 ) ;
#125 = CALENDAR_DATE ( 2020, 23, 12 ) ;
#126 = PERSON_AND_ORGANIZATION_ROLE ( 'creator' ) ;
#127 = PERSON_AND_ORGANIZATION ( #262, #133 ) ;
#128 = EDGE_CURVE ( 'NONE', #178, #235, #94, .T. ) ;
#129 = AXIS2_PLACEMENT_3D ( 'NONE', #216, #63, #86 ) ;
#130 = PERSON_AND_ORGANIZATION ( #262, #133 ) ;
#131 = ORIENTED_EDGE ( 'NONE', *, *, #282, .T. ) ;
#132 = APPROVAL ( #305, 'UNSPECIFIED' ) ;
#133 = ORGANIZATION ( 'UNSPECIFIED', 'UNSPECIFIED', '' ) ;
#134 = EDGE_LOOP ( 'NONE', ( #259, #182 ) ) ;
#135 = VERTEX_POINT ( 'NONE', #192 ) ;
#136 = CARTESIAN_POINT ( 'NONE',  ( -1.614212418857619014, 1.224646799147353256E-15, -10.00000000000000000 ) ) ;
#137 = EDGE_LOOP ( 'NONE', ( #87, #81, #288, #3 ) ) ;
#138 = CARTESIAN_POINT ( 'NONE',  ( 3.000000000000000000, 0.000000000000000000, 0.000000000000000000 ) ) ;
#139 = LINE ( 'NONE', #92, #307 ) ;
#140 = ADVANCED_FACE ( 'NONE', ( #190, #244 ), #299, .F. ) ;
#141 = FACE_OUTER_BOUND ( 'NONE', #80, .T. ) ;
#142 = DIRECTION ( 'NONE',  ( -1.000000000000000000, -0.000000000000000000, -0.000000000000000000 ) ) ;
#143 = CARTESIAN_POINT ( 'NONE',  ( 2.500000000000000888, 0.000000000000000000, 10.00000000000000000 ) ) ;
#144 = EDGE_CURVE ( 'NONE', #108, #29, #325, .T. ) ;
#145 = AXIS2_PLACEMENT_3D ( 'NONE', #161, #172, #113 ) ;
#146 = DIRECTION ( 'NONE',  ( 0.000000000000000000, 0.000000000000000000, 1.000000000000000000 ) ) ;
#147 = CARTESIAN_POINT ( 'NONE',  ( -3.000000000000000444, 0.000000000000000000, 0.000000000000000000 ) ) ;
#148 = PLANE ( 'NONE',  #203 ) ;
#149 = CC_DESIGN_DATE_AND_TIME_ASSIGNMENT ( #25, #195, ( #159 ) ) ;
#150 = PERSON_AND_ORGANIZATION ( #262, #133 ) ;
#151 = EDGE_CURVE ( 'NONE', #178, #31, #213, .T. ) ;
#152 = MECHANICAL_CONTEXT ( 'NONE', #266, 'mechanical' ) ;
#153 = ORIENTED_EDGE ( 'NONE', *, *, #308, .F. ) ;
#154 = EDGE_CURVE ( 'NONE', #29, #135, #84, .T. ) ;
#155 = ORIENTED_EDGE ( 'NONE', *, *, #98, .F. ) ;
#156 = VECTOR ( 'NONE', #40, 1000.000000000000000 ) ;
#157 = ORIENTED_EDGE ( 'NONE', *, *, #163, .F. ) ;
#158 = CARTESIAN_POINT ( 'NONE',  ( -3.000000000000000000, 1.555301434917138433E-15, -12.69999999999999929 ) ) ;
#159 = PRODUCT_DEFINITION ( 'UNKNOWN', '', #204, #56 ) ;
#160 = ORIENTED_EDGE ( 'NONE', *, *, #154, .T. ) ;
#161 = CARTESIAN_POINT ( 'NONE',  ( -2.500000000000000444, 0.000000000000000000, 0.000000000000000000 ) ) ;
#162 = DIRECTION ( 'NONE',  ( 0.000000000000000000, 0.000000000000000000, 1.000000000000000000 ) ) ;
#163 = EDGE_CURVE ( 'NONE', #108, #164, #111, .T. ) ;
#164 = VERTEX_POINT ( 'NONE', #35 ) ;
#165 = CARTESIAN_POINT ( 'NONE',  ( 2.999999999999999112, 0.000000000000000000, 10.00000000000000000 ) ) ;
#166 = FACE_OUTER_BOUND ( 'NONE', #177, .T. ) ;
#167 = APPROVAL ( #278, 'UNSPECIFIED' ) ;
#168 = DIRECTION ( 'NONE',  ( 0.000000000000000000, 0.000000000000000000, 1.000000000000000000 ) ) ;
#169 = DIRECTION ( 'NONE',  ( -1.000000000000000000, -0.000000000000000000, -0.000000000000000000 ) ) ;
#170 = DIRECTION ( 'NONE',  ( -1.000000000000000000, -0.000000000000000000, -0.000000000000000000 ) ) ;
#171 = APPROVAL_PERSON_ORGANIZATION ( #219, #167, #97 ) ;
#172 = DIRECTION ( 'NONE',  ( 1.000000000000000000, 0.000000000000000000, 0.000000000000000000 ) ) ;
#173 = LOCAL_TIME ( 9, 25, 51.00000000000000000, #225 ) ;
#174 = PERSON_AND_ORGANIZATION_ROLE ( 'design_supplier' ) ;
#175 = CLOSED_SHELL ( 'NONE', ( #247, #102, #304, #286, #202, #105, #238, #67, #140, #256 ) ) ;
#176 = ORIENTED_EDGE ( 'NONE', *, *, #151, .T. ) ;
#177 = EDGE_LOOP ( 'NONE', ( #107, #257 ) ) ;
#178 = VERTEX_POINT ( 'NONE', #165 ) ;
#179 = AXIS2_PLACEMENT_3D ( 'NONE', #209, #88, #295 ) ;
#180 = AXIS2_PLACEMENT_3D ( 'NONE', #254, #253, #103 ) ;
#181 = CARTESIAN_POINT ( 'NONE',  ( -2.500000000000000444, 1.224646799147353256E-15, -10.00000000000000000 ) ) ;
#182 = ORIENTED_EDGE ( 'NONE', *, *, #85, .F. ) ;
#183 = CARTESIAN_POINT ( 'NONE',  ( 2.999999999999999112, 12.69999999999999929, 0.000000000000000000 ) ) ;
#184 = LINE ( 'NONE', #241, #231 ) ;
#185 = DIRECTION ( 'NONE',  ( -1.000000000000000000, -0.000000000000000000, -0.000000000000000000 ) ) ;
#186 = CARTESIAN_POINT ( 'NONE',  ( 2.500000000000000444, 10.00000000000000000, 0.000000000000000000 ) ) ;
#187 = CIRCLE ( 'NONE', #280, 10.00000000000000000 ) ;
#188 = CARTESIAN_POINT ( 'NONE',  ( 2.500000000000000888, 0.000000000000000000, 0.000000000000000000 ) ) ;
#189 = CYLINDRICAL_SURFACE ( 'NONE', #301, 12.69999999999999929 ) ;
#190 = FACE_OUTER_BOUND ( 'NONE', #200, .T. ) ;
#191 = FACE_OUTER_BOUND ( 'NONE', #314, .T. ) ;
#192 = CARTESIAN_POINT ( 'NONE',  ( -3.000000000000000444, 1.224646799147353256E-15, -10.00000000000000000 ) ) ;
#193 = FACE_OUTER_BOUND ( 'NONE', #134, .T. ) ;
#194 = PERSON_AND_ORGANIZATION ( #262, #133 ) ;
#195 = DATE_TIME_ROLE ( 'creation_date' ) ;
#196 = EDGE_CURVE ( 'NONE', #269, #290, #335, .T. ) ;
#197 = APPROVAL_ROLE ( '' ) ;
#198 = CC_DESIGN_PERSON_AND_ORGANIZATION_ASSIGNMENT ( #49, #309, ( #83 ) ) ;
#199 = PERSON_AND_ORGANIZATION_ROLE ( 'classification_officer' ) ;
#200 = EDGE_LOOP ( 'NONE', ( #155, #53 ) ) ;
#201 = VERTEX_POINT ( 'NONE', #38 ) ;
#202 = ADVANCED_FACE ( 'NONE', ( #141 ), #13, .F. ) ;
#203 = AXIS2_PLACEMENT_3D ( 'NONE', #66, #20, #277 ) ;
#204 = PRODUCT_DEFINITION_FORMATION_WITH_SPECIFIED_SOURCE ( 'ANY', '', #83, .NOT_KNOWN. ) ;
#205 = DIRECTION ( 'NONE',  ( 0.000000000000000000, 0.000000000000000000, 1.000000000000000000 ) ) ;
#206 = CARTESIAN_POINT ( 'NONE',  ( -2.500000000000000444, 0.000000000000000000, 0.000000000000000000 ) ) ;
#207 = DIRECTION ( 'NONE',  ( -1.000000000000000000, -0.000000000000000000, -0.000000000000000000 ) ) ;
#208 = ORIENTED_EDGE ( 'NONE', *, *, #282, .F. ) ;
#209 = CARTESIAN_POINT ( 'NONE',  ( 3.000000000000000000, 0.000000000000000000, 0.000000000000000000 ) ) ;
#210 = DIRECTION ( 'NONE',  ( 0.000000000000000000, 0.000000000000000000, 1.000000000000000000 ) ) ;
#211 = DIRECTION ( 'NONE',  ( -1.000000000000000000, -0.000000000000000000, -0.000000000000000000 ) ) ;
#212 = CARTESIAN_POINT ( 'NONE',  ( -1.614212418857619014, 0.000000000000000000, 0.000000000000000000 ) ) ;
#213 = CIRCLE ( 'NONE', #260, 10.00000000000000000 ) ;
#214 = AXIS2_PLACEMENT_3D ( 'NONE', #147, #142, #210 ) ;
#215 = DIRECTION ( 'NONE',  ( -1.000000000000000000, -0.000000000000000000, -0.000000000000000000 ) ) ;
#216 = CARTESIAN_POINT ( 'NONE',  ( -3.000000000000000000, 10.00000000000000000, 0.000000000000000000 ) ) ;
#217 = DIRECTION ( 'NONE',  ( -1.000000000000000000, -0.000000000000000000, -0.000000000000000000 ) ) ;
#218 = CARTESIAN_POINT ( 'NONE',  ( 2.500000000000000888, 1.224646799147353256E-15, -10.00000000000000000 ) ) ;
#219 = PERSON_AND_ORGANIZATION ( #262, #133 ) ;
#220 = CIRCLE ( 'NONE', #60, 12.69999999999999929 ) ;
#221 = CC_DESIGN_APPROVAL ( #14, ( #26 ) ) ;
#222 = SHAPE_DEFINITION_REPRESENTATION ( #317, #64 ) ;
#223 = DATE_AND_TIME ( #255, #124 ) ;
#224 = CC_DESIGN_PERSON_AND_ORGANIZATION_ASSIGNMENT ( #127, #199, ( #26 ) ) ;
#225 = COORDINATED_UNIVERSAL_TIME_OFFSET ( 8, 0, .AHEAD. ) ;
#226 = AXIS2_PLACEMENT_3D ( 'NONE', #59, #170, #274 ) ;
#227 = COORDINATED_UNIVERSAL_TIME_OFFSET ( 8, 0, .AHEAD. ) ;
#228 = EDGE_CURVE ( 'NONE', #235, #316, #42, .T. ) ;
#229 = ORIENTED_EDGE ( 'NONE', *, *, #28, .T. ) ;
#230 = ORIENTED_EDGE ( 'NONE', *, *, #196, .T. ) ;
#231 = VECTOR ( 'NONE', #294, 1000.000000000000000 ) ;
#232 = CIRCLE ( 'NONE', #226, 10.00000000000000000 ) ;
#233 = ORIENTED_EDGE ( 'NONE', *, *, #123, .F. ) ;
#234 = MANIFOLD_SOLID_BREP ( 'Ðý×', #175 ) ;
#235 = VERTEX_POINT ( 'NONE', #143 ) ;
#236 = ORIENTED_EDGE ( 'NONE', *, *, #154, .F. ) ;
#237 = DIRECTION ( 'NONE',  ( 0.000000000000000000, 0.000000000000000000, 1.000000000000000000 ) ) ;
#238 = ADVANCED_FACE ( 'NONE', ( #328, #191 ), #300, .F. ) ;
#239 = ORIENTED_EDGE ( 'NONE', *, *, #79, .F. ) ;
#240 = DIRECTION ( 'NONE',  ( -0.000000000000000000, 0.000000000000000000, 1.000000000000000000 ) ) ;
#241 = CARTESIAN_POINT ( 'NONE',  ( -1.614212418857619014, 0.000000000000000000, 12.69999999999999929 ) ) ;
#242 = CARTESIAN_POINT ( 'NONE',  ( -1.614212418857619014, 0.000000000000000000, 0.000000000000000000 ) ) ;
#243 = DIRECTION ( 'NONE',  ( 0.000000000000000000, 0.000000000000000000, 1.000000000000000000 ) ) ;
#244 = FACE_BOUND ( 'NONE', #283, .T. ) ;
#245 =( NAMED_UNIT ( * ) SI_UNIT ( $, .STERADIAN. ) SOLID_ANGLE_UNIT ( ) );
#246 = VECTOR ( 'NONE', #58, 1000.000000000000000 ) ;
#247 = ADVANCED_FACE ( 'NONE', ( #250 ), #189, .T. ) ;
#248 = FACE_OUTER_BOUND ( 'NONE', #264, .T. ) ;
#249 = DIRECTION ( 'NONE',  ( -0.000000000000000000, 0.000000000000000000, 1.000000000000000000 ) ) ;
#250 = FACE_OUTER_BOUND ( 'NONE', #137, .T. ) ;
#251 = CC_DESIGN_APPROVAL ( #167, ( #204 ) ) ;
#252 = UNCERTAINTY_MEASURE_WITH_UNIT (LENGTH_MEASURE( 1.000000000000000082E-05 ), #95, 'distance_accuracy_value', 'NONE');
#253 = DIRECTION ( 'NONE',  ( 0.000000000000000000, 0.000000000000000000, 1.000000000000000000 ) ) ;
#254 = CARTESIAN_POINT ( 'NONE',  ( 0.000000000000000000, 0.000000000000000000, 0.000000000000000000 ) ) ;
#255 = CALENDAR_DATE ( 2020, 23, 12 ) ;
#256 = ADVANCED_FACE ( 'NONE', ( #193 ), #148, .F. ) ;
#257 = ORIENTED_EDGE ( 'NONE', *, *, #271, .F. ) ;
#258 = APPROVAL_DATE_TIME ( #223, #132 ) ;
#259 = ORIENTED_EDGE ( 'NONE', *, *, #144, .F. ) ;
#260 = AXIS2_PLACEMENT_3D ( 'NONE', #12, #15, #237 ) ;
#261 = ORIENTED_EDGE ( 'NONE', *, *, #151, .F. ) ;
#262 = PERSON ( 'UNSPECIFIED', 'UNSPECIFIED', 'UNSPECIFIED', ('UNSPECIFIED'), ('UNSPECIFIED'), ('UNSPECIFIED') ) ;
#263 = CIRCLE ( 'NONE', #214, 10.00000000000000000 ) ;
#264 = EDGE_LOOP ( 'NONE', ( #236, #34, #27, #322 ) ) ;
#265 = FACE_OUTER_BOUND ( 'NONE', #7, .T. ) ;
#266 = APPLICATION_CONTEXT ( 'configuration controlled 3d designs of mechanical parts and assemblies' ) ;
#267 = DIRECTION ( 'NONE',  ( -1.000000000000000000, -0.000000000000000000, -0.000000000000000000 ) ) ;
#268 = CC_DESIGN_PERSON_AND_ORGANIZATION_ASSIGNMENT ( #130, #331, ( #159 ) ) ;
#269 = VERTEX_POINT ( 'NONE', #45 ) ;
#270 = CARTESIAN_POINT ( 'NONE',  ( 3.000000000000000000, 0.000000000000000000, 12.69999999999999929 ) ) ;
#271 = EDGE_CURVE ( 'NONE', #316, #235, #232, .T. ) ;
#272 = LINE ( 'NONE', #136, #109 ) ;
#273 = DIRECTION ( 'NONE',  ( 0.000000000000000000, 0.000000000000000000, -1.000000000000000000 ) ) ;
#274 = DIRECTION ( 'NONE',  ( 0.000000000000000000, 0.000000000000000000, 1.000000000000000000 ) ) ;
#275 = AXIS2_PLACEMENT_3D ( 'NONE', #188, #65, #168 ) ;
#276 = CARTESIAN_POINT ( 'NONE',  ( -1.614212418857619014, 1.224646799147353256E-15, -10.00000000000000000 ) ) ;
#277 = DIRECTION ( 'NONE',  ( 0.000000000000000000, 0.000000000000000000, -1.000000000000000000 ) ) ;
#278 = APPROVAL_STATUS ( 'not_yet_approved' ) ;
#279 = APPROVAL_DATE_TIME ( #48, #167 ) ;
#280 = AXIS2_PLACEMENT_3D ( 'NONE', #43, #217, #330 ) ;
#281 = CC_DESIGN_DATE_AND_TIME_ASSIGNMENT ( #99, #74, ( #26 ) ) ;
#282 = EDGE_CURVE ( 'NONE', #31, #178, #291, .T. ) ;
#283 = EDGE_LOOP ( 'NONE', ( #176, #131 ) ) ;
#284 = APPLICATION_PROTOCOL_DEFINITION ( 'international standard', 'config_control_design', 1994, #266 ) ;
#285 = CC_DESIGN_SECURITY_CLASSIFICATION ( #26, ( #204 ) ) ;
#286 = ADVANCED_FACE ( 'NONE', ( #166 ), #44, .F. ) ;
#287 = ORIENTED_EDGE ( 'NONE', *, *, #128, .F. ) ;
#288 = ORIENTED_EDGE ( 'NONE', *, *, #75, .F. ) ;
#289 = CIRCLE ( 'NONE', #33, 10.00000000000000000 ) ;
#290 = VERTEX_POINT ( 'NONE', #270 ) ;
#291 = CIRCLE ( 'NONE', #9, 10.00000000000000000 ) ;
#292 = EDGE_LOOP ( 'NONE', ( #8, #160, #2, #157 ) ) ;
#293 = CARTESIAN_POINT ( 'NONE',  ( -1.614212418857619014, 0.000000000000000000, 10.00000000000000000 ) ) ;
#294 = DIRECTION ( 'NONE',  ( -1.000000000000000000, -0.000000000000000000, -0.000000000000000000 ) ) ;
#295 = DIRECTION ( 'NONE',  ( 0.000000000000000000, 0.000000000000000000, 1.000000000000000000 ) ) ;
#296 = DIRECTION ( 'NONE',  ( 0.000000000000000000, 0.000000000000000000, 1.000000000000000000 ) ) ;
#297 = DIRECTION ( 'NONE',  ( -1.000000000000000000, -0.000000000000000000, -0.000000000000000000 ) ) ;
#298 = CARTESIAN_POINT ( 'NONE',  ( -1.614212418857619014, 0.000000000000000000, 0.000000000000000000 ) ) ;
#299 = PLANE ( 'NONE',  #73 ) ;
#300 = PLANE ( 'NONE',  #129 ) ;
#301 = AXIS2_PLACEMENT_3D ( 'NONE', #298, #17, #243 ) ;
#302 =( GEOMETRIC_REPRESENTATION_CONTEXT ( 3 ) GLOBAL_UNCERTAINTY_ASSIGNED_CONTEXT ( ( #252 ) ) GLOBAL_UNIT_ASSIGNED_CONTEXT ( ( #95, #114, #245 ) ) REPRESENTATION_CONTEXT ( 'NONE', 'WORKASPACE' ) );
#303 = APPROVAL_DATE_TIME ( #1, #14 ) ;
#304 = ADVANCED_FACE ( 'NONE', ( #36 ), #321, .F. ) ;
#305 = APPROVAL_STATUS ( 'not_yet_approved' ) ;
#306 = COORDINATED_UNIVERSAL_TIME_OFFSET ( 8, 0, .AHEAD. ) ;
#307 = VECTOR ( 'NONE', #41, 1000.000000000000000 ) ;
#308 = EDGE_CURVE ( 'NONE', #135, #164, #263, .T. ) ;
#309 = PERSON_AND_ORGANIZATION_ROLE ( 'design_owner' ) ;
#310 = PERSON_AND_ORGANIZATION ( #262, #133 ) ;
#311 = ORIENTED_EDGE ( 'NONE', *, *, #333, .F. ) ;
#312 = AXIS2_PLACEMENT_3D ( 'NONE', #57, #62, #320 ) ;
#313 = CC_DESIGN_APPROVAL ( #132, ( #159 ) ) ;
#314 = EDGE_LOOP ( 'NONE', ( #11, #315 ) ) ;
#315 = ORIENTED_EDGE ( 'NONE', *, *, #324, .T. ) ;
#316 = VERTEX_POINT ( 'NONE', #218 ) ;
#317 = PRODUCT_DEFINITION_SHAPE ( 'NONE', 'NONE',  #159 ) ;
#318 = CARTESIAN_POINT ( 'NONE',  ( -1.614212418857619014, 0.000000000000000000, 0.000000000000000000 ) ) ;
#319 = APPLICATION_CONTEXT ( 'configuration controlled 3d designs of mechanical parts and assemblies' ) ;
#320 = DIRECTION ( 'NONE',  ( 0.000000000000000000, 0.000000000000000000, 1.000000000000000000 ) ) ;
#321 = CYLINDRICAL_SURFACE ( 'NONE', #52, 10.00000000000000000 ) ;
#322 = ORIENTED_EDGE ( 'NONE', *, *, #123, .T. ) ;
#323 = CARTESIAN_POINT ( 'NONE',  ( -1.614212418857619014, 0.000000000000000000, 10.00000000000000000 ) ) ;
#324 = EDGE_CURVE ( 'NONE', #61, #201, #106, .T. ) ;
#325 = CIRCLE ( 'NONE', #145, 10.00000000000000000 ) ;
#326 = DIRECTION ( 'NONE',  ( 0.000000000000000000, 0.000000000000000000, 1.000000000000000000 ) ) ;
#327 = AXIS2_PLACEMENT_3D ( 'NONE', #91, #169, #146 ) ;
#328 = FACE_BOUND ( 'NONE', #37, .T. ) ;
#329 = CYLINDRICAL_SURFACE ( 'NONE', #4, 10.00000000000000000 ) ;
#330 = DIRECTION ( 'NONE',  ( 0.000000000000000000, 0.000000000000000000, 1.000000000000000000 ) ) ;
#331 = PERSON_AND_ORGANIZATION_ROLE ( 'creator' ) ;
#332 = CALENDAR_DATE ( 2020, 23, 12 ) ;
#333 = EDGE_CURVE ( 'NONE', #269, #61, #139, .T. ) ;
#334 = CALENDAR_DATE ( 2020, 23, 12 ) ;
#335 = CIRCLE ( 'NONE', #179, 12.69999999999999929 ) ;
ENDSEC;
END-ISO-10303-21;
